  0
SECTION
  2
HEADER
  9
$LIMMIN
 10
0.000000
 20
0.000000
  9
$LIMMAX
 10
840.896415
 20
594.603558
  9
$EXTMIN
 10
0.000000
 20
0.000000
  9
$EXTMAX
 10
840.896415
 20
594.603558
  9
$ANGBASE
 50
0.0
  9
$ANGDIR
 70
0
  9
$DIMRND
 40
0.100000
  9
$DIMSE1
 70
0
  9
$DIMSE2
 70
0
  9
$DIMTXT
 40
3.500000
  9
$LTSCALE
 40
1.000000
  9
$LUPREC
 70
0
  9
$AUPREC
 70
0
  9
$PDMODE
 70
2
  9
$PDSIZE
 40
4.204482
  0
ENDSEC
  0
SECTION
  2
TABLES
  0
TABLE
  2
VPORT
  70
1
  0
VPORT
  2
*ACTIVE
 70
0
  10
0.0
 20
0.0
 11
1.0
 21
1.0
 12
594.0
 22
420.0
 13
0.0
 23
0.0
 14
10.0
 24
10.0
 15
10.0
 25
10.0
 16
0.0
 26
0.0
 36
1.0
 17
594.0
 27
420.0
 37
100.0
 40
1000.0
 41
1.0
 42
50.0
 43
0.0
 44
0.0
 50
0.0
 51
0.0
 71
0
 72
2000
 73
1
 74
3
 75
0
 76
0
 77
0
 78
1
  0
ENDTAB
  0
TABLE
  2
LTYPE
 70
4
  0
LTYPE
  2
CONTINUOUS
 70
0
  3
Solid line
 72
65
 73
0
 40
0.0
  0
LTYPE
  2
DASHED
 70
0
  3
Dashed line
 72
65
 73
2
 40
6.000000
 49
3.000000
 49
-3.000000
  0
LTYPE
  2
CENTER
 70
0
  3
Chain line
 72
65
 73
4
 40
24.000000
 49
15.000000
 49
-3.000000
 49
3.000000
 49
-3.000000
  0
LTYPE
  2
RANDOM
 70
0
  3
Random line
 72
65
 73
4
 40
22.500000
 49
6.000000
 49
-3.000000
 49
4.500000
 49
-9.000000
  0
ENDTAB
  0
TABLE
  2
STYLE
 70
9
  0
STYLE
  2
STANDARD
 40
0
 41
1.0
 50
0.0
 71
0
 42
0
  3
simplex
  4

 70
0
  0
ENDTAB
  0
TABLE
  2
LAYER
 70
2
  0
LAYER
  2
0
 70
0
 62
7
  6
CONTINUOUS
  0
LAYER
  2
0
 62
1
  6
CONTINUOUS
 70
0
  0
ENDTAB
  0
ENDSEC
  0
SECTION
  2
BLOCKS
  0
ENDSEC
  0
SECTION
  2
ENTITIES
  0
LINE
  8
0
  6
CONTINUOUS
 62
1
 10
245.662864
 20
500.100980
 11
456.412864
 21
500.100980
  0
LINE
  8
0
  6
CONTINUOUS
 62
1
 10
456.412864
 20
518.850980
 11
456.412864
 21
210.100980
  0
LINE
  8
0
  6
CONTINUOUS
 62
1
 10
245.662864
 20
518.850980
 11
245.662864
 21
210.100980
  0
CIRCLE
  8
0
  6
CONTINUOUS
 62
1
 10
270.662864
 20
437.600980
 40
6.250000
  0
CIRCLE
  8
0
  6
CONTINUOUS
 62
1
 10
270.662864
 20
437.600980
 40
8.750000
  0
LINE
  8
0
  6
CONTINUOUS
 62
1
 10
455.162864
 20
191.350980
 11
455.162864
 21
210.100980
  0
LINE
  8
0
  6
CONTINUOUS
 62
1
 10
246.912864
 20
191.350980
 11
246.912864
 21
210.100980
  0
LINE
  8
0
  6
CONTINUOUS
 62
1
 10
245.662864
 20
210.100980
 11
456.412864
 21
210.100980
  0
LINE
  8
0
  6
CONTINUOUS
 62
1
 10
295.162864
 20
210.100980
 11
295.162864
 21
191.350980
  0
LINE
  8
0
  6
CONTINUOUS
 62
1
 10
297.662864
 20
191.350980
 11
297.662864
 21
204.850980
  0
LINE
  8
0
  6
CONTINUOUS
 62
1
 10
455.162864
 20
191.350980
 11
297.662864
 21
191.350980
  0
LINE
  8
0
  6
CONTINUOUS
 62
1
 10
430.866822
 20
207.100980
 11
306.872820
 21
207.100980
  0
LINE
  8
0
  6
CONTINUOUS
 62
1
 10
309.380689
 20
207.100980
 11
309.380689
 21
210.100980
  0
LINE
  8
0
  6
CONTINUOUS
 62
1
 10
306.872820
 20
205.600980
 11
432.004875
 21
205.600980
  0
LINE
  8
0
  6
CONTINUOUS
 62
1
 10
432.573901
 20
204.850980
 11
297.662864
 21
204.850980
  0
LINE
  8
0
  6
CONTINUOUS
 62
1
 10
306.872820
 20
207.100980
 11
306.872820
 21
205.600980
  0
LINE
  8
0
  6
CONTINUOUS
 62
1
 10
442.816376
 20
191.350980
 11
428.590717
 21
210.100980
  0
LINE
  8
0
  6
CONTINUOUS
 62
1
 10
311.165405
 20
205.600980
 11
311.165405
 21
204.850980
  0
LINE
  8
0
  6
CONTINUOUS
 62
1
 10
253.656876
 20
193.350980
 11
288.374428
 21
193.350980
  0
LINE
  8
0
  6
CONTINUOUS
 62
1
 10
290.162864
 20
191.350980
 11
288.374428
 21
193.350980
  0
LINE
  8
0
  6
CONTINUOUS
 62
1
 10
251.912864
 20
191.350980
 11
253.656876
 21
193.350980
  0
LINE
  8
0
  6
CONTINUOUS
 62
1
 10
295.162864
 20
191.350980
 11
290.162864
 21
191.350980
  0
LINE
  8
0
  6
CONTINUOUS
 62
1
 10
251.912864
 20
191.350980
 11
246.912864
 21
191.350980
  0
LINE
  8
0
  6
CONTINUOUS
 62
1
 10
316.711919
 20
185.100980
 11
316.711919
 21
191.350980
  0
LINE
  8
0
  6
CONTINUOUS
 62
1
 10
306.711919
 20
185.100980
 11
306.711919
 21
191.350980
  0
LINE
  8
0
  6
CONTINUOUS
 62
1
 10
310.461919
 20
181.350980
 11
312.961919
 21
181.350980
  0
ARC
  8
0
  6
CONTINUOUS
 62
1
 10
312.961919
 20
185.100980
 40
3.750000
 50
270.000000
 51
0.000000
  0
ARC
  8
0
  6
CONTINUOUS
 62
1
 10
310.461919
 20
185.100980
 40
3.750000
 50
180.000000
 51
270.000000
  0
LINE
  8
0
  6
CONTINUOUS
 62
1
 10
279.552867
 20
513.316054
 11
279.552867
 21
500.100980
  0
LINE
  8
0
  6
CONTINUOUS
 62
1
 10
273.052867
 20
513.316054
 11
273.052867
 21
500.100980
  0
LINE
  8
0
  6
CONTINUOUS
 62
1
 10
456.412864
 20
518.850980
 11
271.005420
 21
518.850980
  0
LINE
  8
0
  6
CONTINUOUS
 62
1
 10
271.005420
 20
518.850980
 11
245.662864
 21
518.850980
  0
ARC
  8
0
  6
CONTINUOUS
 62
1
 10
264.547780
 20
513.316054
 40
8.505088
 50
0.000000
 51
40.600299
  0
ARC
  8
0
  6
CONTINUOUS
 62
1
 10
264.547780
 20
513.316054
 40
15.005088
 50
0.000000
 51
21.645939
  0
LINE
  8
0
  6
CONTINUOUS
 62
1
 10
421.079499
 20
500.100980
 11
421.079499
 21
504.712080
  0
LINE
  8
0
  6
CONTINUOUS
 62
1
 10
426.079499
 20
504.712080
 11
426.079499
 21
500.100980
  0
LINE
  8
0
  6
CONTINUOUS
 62
1
 10
421.079499
 20
504.712080
 11
426.079499
 21
504.712080
  0
LINE
  8
0
  6
CONTINUOUS
 62
1
 10
421.705731
 20
504.644113
 11
421.190403
 21
518.850980
  0
LINE
  8
0
  6
CONTINUOUS
 62
1
 10
425.453266
 20
504.780048
 11
424.942870
 21
518.850980
  0
ARC
  8
0
  6
CENTER
 62
4
 10
446.930610
 20
199.494044
 40
149.267745
 50
180.000000
 51
270.000000
  0
LINE
  8
0
  6
CENTER
 62
4
 10
446.930610
 20
50.226298
 11
446.930610
 21
199.494044
  0
TEXT
  8
0
  6
CONTINUOUS
 62
2
 10
353.934878
 20
130.538835
 40
25.000000
  1
RH
 50
0.000000
 41
0.800000
 51
0.000000
  7
STANDARD
  0
TEXT
  8
0
  6
CONTINUOUS
 62
1
 10
301.884674
 20
448.403181
 40
17.500000
  1
FG150
 50
0.000000
 41
1.000000
 51
0.000000
  7
STANDARD
  0
LINE
  8
0
  6
CONTINUOUS
 62
1
 10
35.094695
 20
31.654039
 11
650.284053
 21
31.654039
  0
LINE
  8
0
  6
CONTINUOUS
 62
1
 10
650.284053
 20
31.654039
 11
650.284053
 21
556.698200
  0
LINE
  8
0
  6
CONTINUOUS
 62
1
 10
650.284053
 20
556.698200
 11
35.094695
 21
556.698200
  0
LINE
  8
0
  6
CONTINUOUS
 62
1
 10
35.094695
 20
556.698200
 11
35.094695
 21
31.654039
  0
ENDSEC
  0
EOF
